ISO-10303-21;
HEADER;
FILE_DESCRIPTION (( 'STEP AP203' ),
    '1' );
FILE_NAME ('QB-CTZHWP-20-852-M.STEP',
    '2020-12-24T01:36:07',
    ( '' ),
    ( '' ),
    'SwSTEP 2.0',
    'SolidWorks 2020',
    '' );
FILE_SCHEMA (( 'CONFIG_CONTROL_DESIGN' ));
ENDSEC;

DATA;
#1 = DIRECTION ( 'NONE',  ( 1.000000000000000000, 0.000000000000000000, 0.000000000000000000 ) ) ;
#2 = CARTESIAN_POINT ( 'NONE',  ( 3.000000000000000000, 1.555301434917138433E-15, -12.69999999999999929 ) ) ;
#3 = CARTESIAN_POINT ( 'NONE',  ( -3.000000000000000000, 0.000000000000000000, 12.69999999999999929 ) ) ;
#4 = EDGE_LOOP ( 'NONE', ( #269, #284, #135, #104 ) ) ;
#5 = DIRECTION ( 'NONE',  ( 0.000000000000000000, 0.000000000000000000, 1.000000000000000000 ) ) ;
#6 = VERTEX_POINT ( 'NONE', #78 ) ;
#7 = FACE_OUTER_BOUND ( 'NONE', #55, .T. ) ;
#8 = ORIENTED_EDGE ( 'NONE', *, *, #79, .T. ) ;
#9 = DIRECTION ( 'NONE',  ( -1.000000000000000000, -0.000000000000000000, -0.000000000000000000 ) ) ;
#10 = LINE ( 'NONE', #119, #331 ) ;
#11 = FACE_OUTER_BOUND ( 'NONE', #209, .T. ) ;
#12 = DATE_TIME_ROLE ( 'classification_date' ) ;
#13 = CARTESIAN_POINT ( 'NONE',  ( -3.000000000000000000, 0.000000000000000000, 0.000000000000000000 ) ) ;
#14 = APPROVAL_DATE_TIME ( #326, #263 ) ;
#15 = DIRECTION ( 'NONE',  ( 0.000000000000000000, 0.000000000000000000, 1.000000000000000000 ) ) ;
#16 = PERSON_AND_ORGANIZATION ( #100, #260 ) ;
#17 = AXIS2_PLACEMENT_3D ( 'NONE', #319, #176, #89 ) ;
#18 = EDGE_CURVE ( 'NONE', #334, #27, #48, .T. ) ;
#19 = LINE ( 'NONE', #137, #177 ) ;
#20 = AXIS2_PLACEMENT_3D ( 'NONE', #13, #146, #93 ) ;
#21 = LINE ( 'NONE', #257, #62 ) ;
#22 = VECTOR ( 'NONE', #193, 1000.000000000000000 ) ;
#23 = CIRCLE ( 'NONE', #103, 10.00000000000000000 ) ;
#24 = AXIS2_PLACEMENT_3D ( 'NONE', #318, #188, #219 ) ;
#25 = ORIENTED_EDGE ( 'NONE', *, *, #136, .T. ) ;
#26 = PRODUCT_DEFINITION ( 'UNKNOWN', '', #308, #158 ) ;
#27 = VERTEX_POINT ( 'NONE', #239 ) ;
#28 = ORIENTED_EDGE ( 'NONE', *, *, #301, .T. ) ;
#29 = DIRECTION ( 'NONE',  ( 0.000000000000000000, 0.000000000000000000, 1.000000000000000000 ) ) ;
#30 = VERTEX_POINT ( 'NONE', #2 ) ;
#31 = VECTOR ( 'NONE', #60, 1000.000000000000000 ) ;
#32 = CYLINDRICAL_SURFACE ( 'NONE', #194, 12.69999999999999929 ) ;
#33 = ORIENTED_EDGE ( 'NONE', *, *, #116, .T. ) ;
#34 = PLANE ( 'NONE',  #47 ) ;
#35 = FACE_OUTER_BOUND ( 'NONE', #237, .T. ) ;
#36 = PERSON_AND_ORGANIZATION ( #100, #260 ) ;
#37 = CARTESIAN_POINT ( 'NONE',  ( -1.614212418857619014, 1.224646799147353256E-15, -10.00000000000000000 ) ) ;
#38 = APPROVAL_PERSON_ORGANIZATION ( #226, #206, #92 ) ;
#39 = AXIS2_PLACEMENT_3D ( 'NONE', #151, #328, #199 ) ;
#40 = APPROVAL_STATUS ( 'not_yet_approved' ) ;
#41 = FACE_OUTER_BOUND ( 'NONE', #311, .T. ) ;
#42 = MANIFOLD_SOLID_BREP ( 'Ðý×', #88 ) ;
#43 = PERSON_AND_ORGANIZATION ( #100, #260 ) ;
#44 = CYLINDRICAL_SURFACE ( 'NONE', #129, 10.00000000000000000 ) ;
#45 = COORDINATED_UNIVERSAL_TIME_OFFSET ( 8, 0, .AHEAD. ) ;
#46 = DIRECTION ( 'NONE',  ( -1.000000000000000000, -0.000000000000000000, -0.000000000000000000 ) ) ;
#47 = AXIS2_PLACEMENT_3D ( 'NONE', #143, #1, #196 ) ;
#48 = CIRCLE ( 'NONE', #283, 10.00000000000000000 ) ;
#49 = CIRCLE ( 'NONE', #20, 12.69999999999999929 ) ;
#50 = CC_DESIGN_PERSON_AND_ORGANIZATION_ASSIGNMENT ( #249, #68, ( #98 ) ) ;
#51 = EDGE_CURVE ( 'NONE', #169, #289, #268, .T. ) ;
#52 = DIRECTION ( 'NONE',  ( 1.000000000000000000, 0.000000000000000000, 0.000000000000000000 ) ) ;
#53 = APPLICATION_CONTEXT ( 'configuration controlled 3d designs of mechanical parts and assemblies' ) ;
#54 = CC_DESIGN_DATE_AND_TIME_ASSIGNMENT ( #122, #12, ( #98 ) ) ;
#55 = EDGE_LOOP ( 'NONE', ( #317, #246 ) ) ;
#56 = CARTESIAN_POINT ( 'NONE',  ( -2.500000000000000444, 0.000000000000000000, 10.00000000000000000 ) ) ;
#57 = EDGE_LOOP ( 'NONE', ( #114, #235 ) ) ;
#58 = ORIENTED_EDGE ( 'NONE', *, *, #204, .T. ) ;
#59 = ORIENTED_EDGE ( 'NONE', *, *, #175, .F. ) ;
#60 = DIRECTION ( 'NONE',  ( -1.000000000000000000, -0.000000000000000000, -0.000000000000000000 ) ) ;
#61 = ORIENTED_EDGE ( 'NONE', *, *, #281, .F. ) ;
#62 = VECTOR ( 'NONE', #307, 1000.000000000000000 ) ;
#63 = AXIS2_PLACEMENT_3D ( 'NONE', #86, #91, #171 ) ;
#64 = ADVANCED_FACE ( 'NONE', ( #223 ), #277, .F. ) ;
#65 = FACE_BOUND ( 'NONE', #84, .T. ) ;
#66 = CARTESIAN_POINT ( 'NONE',  ( -3.000000000000000444, 1.224646799147353256E-15, -10.00000000000000000 ) ) ;
#67 = DIRECTION ( 'NONE',  ( -1.000000000000000000, -0.000000000000000000, -0.000000000000000000 ) ) ;
#68 = PERSON_AND_ORGANIZATION_ROLE ( 'classification_officer' ) ;
#69 = PLANE ( 'NONE',  #63 ) ;
#70 = PERSON_AND_ORGANIZATION ( #100, #260 ) ;
#71 = DIRECTION ( 'NONE',  ( 0.000000000000000000, 0.000000000000000000, 1.000000000000000000 ) ) ;
#72 = DATE_AND_TIME ( #271, #234 ) ;
#73 = DIRECTION ( 'NONE',  ( -1.000000000000000000, -0.000000000000000000, -0.000000000000000000 ) ) ;
#74 = ADVANCED_FACE ( 'NONE', ( #248 ), #173, .F. ) ;
#75 = ADVANCED_FACE ( 'NONE', ( #35 ), #69, .F. ) ;
#76 = ORIENTED_EDGE ( 'NONE', *, *, #291, .T. ) ;
#77 = VERTEX_POINT ( 'NONE', #272 ) ;
#78 = CARTESIAN_POINT ( 'NONE',  ( -3.000000000000000444, 0.000000000000000000, 10.00000000000000000 ) ) ;
#79 = EDGE_CURVE ( 'NONE', #289, #77, #299, .T. ) ;
#80 = CARTESIAN_POINT ( 'NONE',  ( 2.999999999999999112, 1.224646799147353256E-15, -10.00000000000000000 ) ) ;
#81 = ORIENTED_EDGE ( 'NONE', *, *, #109, .T. ) ;
#82 = CARTESIAN_POINT ( 'NONE',  ( -3.000000000000000000, 0.000000000000000000, 0.000000000000000000 ) ) ;
#83 = ORIENTED_EDGE ( 'NONE', *, *, #106, .T. ) ;
#84 = EDGE_LOOP ( 'NONE', ( #335, #112 ) ) ;
#85 = CARTESIAN_POINT ( 'NONE',  ( 2.500000000000000888, 0.000000000000000000, 10.00000000000000000 ) ) ;
#86 = CARTESIAN_POINT ( 'NONE',  ( 2.500000000000000444, 10.00000000000000000, 0.000000000000000000 ) ) ;
#87 = LOCAL_TIME ( 9, 36, 7.000000000000000000, #224 ) ;
#88 = CLOSED_SHELL ( 'NONE', ( #279, #140, #64, #75, #160, #74, #285, #221, #322, #265 ) ) ;
#89 = DIRECTION ( 'NONE',  ( 0.000000000000000000, 0.000000000000000000, 1.000000000000000000 ) ) ;
#90 = DIRECTION ( 'NONE',  ( 0.000000000000000000, 0.000000000000000000, 1.000000000000000000 ) ) ;
#91 = DIRECTION ( 'NONE',  ( -1.000000000000000000, 0.000000000000000000, -0.000000000000000000 ) ) ;
#92 = APPROVAL_ROLE ( '' ) ;
#93 = DIRECTION ( 'NONE',  ( 0.000000000000000000, 0.000000000000000000, 1.000000000000000000 ) ) ;
#94 = CALENDAR_DATE ( 2020, 24, 12 ) ;
#95 = CARTESIAN_POINT ( 'NONE',  ( -1.614212418857619014, 0.000000000000000000, 0.000000000000000000 ) ) ;
#96 = EDGE_CURVE ( 'NONE', #293, #77, #102, .T. ) ;
#97 = EDGE_CURVE ( 'NONE', #210, #30, #120, .T. ) ;
#98 = SECURITY_CLASSIFICATION ( '', '', #172 ) ;
#99 = CIRCLE ( 'NONE', #290, 10.00000000000000000 ) ;
#100 = PERSON ( 'UNSPECIFIED', 'UNSPECIFIED', 'UNSPECIFIED', ('UNSPECIFIED'), ('UNSPECIFIED'), ('UNSPECIFIED') ) ;
#101 = CIRCLE ( 'NONE', #138, 12.69999999999999929 ) ;
#102 = CIRCLE ( 'NONE', #39, 10.00000000000000000 ) ;
#103 = AXIS2_PLACEMENT_3D ( 'NONE', #273, #46, #304 ) ;
#104 = ORIENTED_EDGE ( 'NONE', *, *, #301, .F. ) ;
#105 = ORIENTED_EDGE ( 'NONE', *, *, #201, .T. ) ;
#106 = EDGE_CURVE ( 'NONE', #30, #215, #10, .T. ) ;
#107 = LINE ( 'NONE', #214, #22 ) ;
#108 = CARTESIAN_POINT ( 'NONE',  ( 2.999999999999999112, 0.000000000000000000, 0.000000000000000000 ) ) ;
#109 = EDGE_CURVE ( 'NONE', #264, #215, #49, .T. ) ;
#110 = FACE_OUTER_BOUND ( 'NONE', #57, .T. ) ;
#111 = CC_DESIGN_APPROVAL ( #206, ( #98 ) ) ;
#112 = ORIENTED_EDGE ( 'NONE', *, *, #236, .T. ) ;
#113 = DIRECTION ( 'NONE',  ( 0.000000000000000000, 0.000000000000000000, 1.000000000000000000 ) ) ;
#114 = ORIENTED_EDGE ( 'NONE', *, *, #97, .F. ) ;
#115 = CARTESIAN_POINT ( 'NONE',  ( -1.614212418857619014, 0.000000000000000000, 10.00000000000000000 ) ) ;
#116 = EDGE_CURVE ( 'NONE', #131, #6, #23, .T. ) ;
#117 = DIRECTION ( 'NONE',  ( 0.000000000000000000, 0.000000000000000000, 1.000000000000000000 ) ) ;
#118 = CARTESIAN_POINT ( 'NONE',  ( 3.000000000000000000, 0.000000000000000000, 12.69999999999999929 ) ) ;
#119 = CARTESIAN_POINT ( 'NONE',  ( -1.614212418857619014, 1.555301434917138433E-15, -12.69999999999999929 ) ) ;
#120 = CIRCLE ( 'NONE', #147, 12.69999999999999929 ) ;
#121 = DIRECTION ( 'NONE',  ( 0.000000000000000000, 0.000000000000000000, 1.000000000000000000 ) ) ;
#122 = DATE_AND_TIME ( #252, #287 ) ;
#123 = CARTESIAN_POINT ( 'NONE',  ( -1.614212418857619014, 0.000000000000000000, 0.000000000000000000 ) ) ;
#124 = PRODUCT_DEFINITION_SHAPE ( 'NONE', 'NONE',  #26 ) ;
#125 = APPLICATION_PROTOCOL_DEFINITION ( 'international standard', 'config_control_design', 1994, #324 ) ;
#126 = DIRECTION ( 'NONE',  ( -1.000000000000000000, -0.000000000000000000, -0.000000000000000000 ) ) ;
#127 = AXIS2_PLACEMENT_3D ( 'NONE', #108, #295, #220 ) ;
#128 = APPROVAL_ROLE ( '' ) ;
#129 = AXIS2_PLACEMENT_3D ( 'NONE', #149, #126, #253 ) ;
#130 = APPROVAL_PERSON_ORGANIZATION ( #70, #315, #181 ) ;
#131 = VERTEX_POINT ( 'NONE', #66 ) ;
#132 = DIRECTION ( 'NONE',  ( -0.000000000000000000, 0.000000000000000000, 1.000000000000000000 ) ) ;
#133 = ORIENTED_EDGE ( 'NONE', *, *, #236, .F. ) ;
#134 = CYLINDRICAL_SURFACE ( 'NONE', #282, 12.69999999999999929 ) ;
#135 = ORIENTED_EDGE ( 'NONE', *, *, #281, .T. ) ;
#136 = EDGE_CURVE ( 'NONE', #6, #131, #99, .T. ) ;
#137 = CARTESIAN_POINT ( 'NONE',  ( -1.614212418857619014, 0.000000000000000000, 10.00000000000000000 ) ) ;
#138 = AXIS2_PLACEMENT_3D ( 'NONE', #82, #262, #113 ) ;
#139 = ORIENTED_EDGE ( 'NONE', *, *, #207, .F. ) ;
#140 = ADVANCED_FACE ( 'NONE', ( #11 ), #297, .F. ) ;
#141 = CARTESIAN_POINT ( 'NONE',  ( -1.614212418857619014, 0.000000000000000000, 0.000000000000000000 ) ) ;
#142 = ORIENTED_EDGE ( 'NONE', *, *, #136, .F. ) ;
#143 = CARTESIAN_POINT ( 'NONE',  ( -2.500000000000000444, 10.00000000000000000, 0.000000000000000000 ) ) ;
#144 = CARTESIAN_POINT ( 'NONE',  ( -3.000000000000000444, 0.000000000000000000, 0.000000000000000000 ) ) ;
#145 = DATE_AND_TIME ( #148, #187 ) ;
#146 = DIRECTION ( 'NONE',  ( -1.000000000000000000, -0.000000000000000000, -0.000000000000000000 ) ) ;
#147 = AXIS2_PLACEMENT_3D ( 'NONE', #275, #67, #15 ) ;
#148 = CALENDAR_DATE ( 2020, 24, 12 ) ;
#149 = CARTESIAN_POINT ( 'NONE',  ( -1.614212418857619014, 0.000000000000000000, 0.000000000000000000 ) ) ;
#150 = PERSON_AND_ORGANIZATION_ROLE ( 'design_owner' ) ;
#151 = CARTESIAN_POINT ( 'NONE',  ( 2.500000000000000888, 0.000000000000000000, 0.000000000000000000 ) ) ;
#152 = APPROVAL_STATUS ( 'not_yet_approved' ) ;
#153 = CARTESIAN_POINT ( 'NONE',  ( 3.000000000000000000, 0.000000000000000000, 0.000000000000000000 ) ) ;
#154 = CARTESIAN_POINT ( 'NONE',  ( -2.500000000000000444, 0.000000000000000000, 0.000000000000000000 ) ) ;
#155 = CC_DESIGN_SECURITY_CLASSIFICATION ( #98, ( #308 ) ) ;
#156 = DIRECTION ( 'NONE',  ( 0.000000000000000000, 0.000000000000000000, -1.000000000000000000 ) ) ;
#157 = CC_DESIGN_PERSON_AND_ORGANIZATION_ASSIGNMENT ( #16, #298, ( #308 ) ) ;
#158 = DESIGN_CONTEXT ( 'detailed design', #324, 'design' ) ;
#159 = DIRECTION ( 'NONE',  ( -1.000000000000000000, -0.000000000000000000, -0.000000000000000000 ) ) ;
#160 = ADVANCED_FACE ( 'NONE', ( #41 ), #44, .F. ) ;
#161 = DIRECTION ( 'NONE',  ( 0.000000000000000000, 0.000000000000000000, -1.000000000000000000 ) ) ;
#162 = CARTESIAN_POINT ( 'NONE',  ( 2.999999999999999112, 0.000000000000000000, 0.000000000000000000 ) ) ;
#163 = UNCERTAINTY_MEASURE_WITH_UNIT (LENGTH_MEASURE( 1.000000000000000082E-05 ), #245, 'distance_accuracy_value', 'NONE');
#164 = EDGE_LOOP ( 'NONE', ( #81, #28 ) ) ;
#165 = FACE_OUTER_BOUND ( 'NONE', #4, .T. ) ;
#166 = EDGE_LOOP ( 'NONE', ( #142, #314 ) ) ;
#167 =( NAMED_UNIT ( * ) SI_UNIT ( $, .STERADIAN. ) SOLID_ANGLE_UNIT ( ) );
#168 = AXIS2_PLACEMENT_3D ( 'NONE', #178, #90, #228 ) ;
#169 = VERTEX_POINT ( 'NONE', #303 ) ;
#170 = FACE_OUTER_BOUND ( 'NONE', #244, .T. ) ;
#171 = DIRECTION ( 'NONE',  ( -0.000000000000000000, 0.000000000000000000, 1.000000000000000000 ) ) ;
#172 = SECURITY_CLASSIFICATION_LEVEL ( 'unclassified' ) ;
#173 = CYLINDRICAL_SURFACE ( 'NONE', #17, 10.00000000000000000 ) ;
#174 = COORDINATED_UNIVERSAL_TIME_OFFSET ( 8, 0, .AHEAD. ) ;
#175 = EDGE_CURVE ( 'NONE', #77, #293, #217, .T. ) ;
#176 = DIRECTION ( 'NONE',  ( -1.000000000000000000, -0.000000000000000000, -0.000000000000000000 ) ) ;
#177 = VECTOR ( 'NONE', #9, 1000.000000000000000 ) ;
#178 = CARTESIAN_POINT ( 'NONE',  ( 0.000000000000000000, 0.000000000000000000, 0.000000000000000000 ) ) ;
#179 = DIRECTION ( 'NONE',  ( 0.000000000000000000, 0.000000000000000000, 1.000000000000000000 ) ) ;
#180 = PRODUCT_RELATED_PRODUCT_CATEGORY ( 'detail', '', ( #183 ) ) ;
#181 = APPROVAL_ROLE ( '' ) ;
#182 = CC_DESIGN_APPROVAL ( #263, ( #26 ) ) ;
#183 = PRODUCT ( 'QB-CTZHWP-20-852-M', 'QB-CTZHWP-20-852-M', '', ( #274 ) ) ;
#184 = ORIENTED_EDGE ( 'NONE', *, *, #207, .T. ) ;
#185 = CARTESIAN_POINT ( 'NONE',  ( -2.500000000000000444, 0.000000000000000000, 0.000000000000000000 ) ) ;
#186 = EDGE_CURVE ( 'NONE', #30, #210, #258, .T. ) ;
#187 = LOCAL_TIME ( 9, 36, 7.000000000000000000, #254 ) ;
#188 = DIRECTION ( 'NONE',  ( 1.000000000000000000, 0.000000000000000000, 0.000000000000000000 ) ) ;
#189 = EDGE_LOOP ( 'NONE', ( #261, #105, #76, #25 ) ) ;
#190 = ORIENTED_EDGE ( 'NONE', *, *, #291, .F. ) ;
#191 = DIRECTION ( 'NONE',  ( -1.000000000000000000, -0.000000000000000000, -0.000000000000000000 ) ) ;
#192 = ORIENTED_EDGE ( 'NONE', *, *, #97, .T. ) ;
#193 = DIRECTION ( 'NONE',  ( -1.000000000000000000, -0.000000000000000000, -0.000000000000000000 ) ) ;
#194 = AXIS2_PLACEMENT_3D ( 'NONE', #238, #159, #266 ) ;
#195 = DIRECTION ( 'NONE',  ( -1.000000000000000000, -0.000000000000000000, -0.000000000000000000 ) ) ;
#196 = DIRECTION ( 'NONE',  ( 0.000000000000000000, 0.000000000000000000, -1.000000000000000000 ) ) ;
#197 = DIRECTION ( 'NONE',  ( -1.000000000000000000, -0.000000000000000000, -0.000000000000000000 ) ) ;
#198 = PERSON_AND_ORGANIZATION ( #100, #260 ) ;
#199 = DIRECTION ( 'NONE',  ( 0.000000000000000000, 0.000000000000000000, 1.000000000000000000 ) ) ;
#200 = COORDINATED_UNIVERSAL_TIME_OFFSET ( 8, 0, .AHEAD. ) ;
#201 = EDGE_CURVE ( 'NONE', #27, #334, #320, .T. ) ;
#202 = PERSON_AND_ORGANIZATION_ROLE ( 'creator' ) ;
#203 = CARTESIAN_POINT ( 'NONE',  ( 2.500000000000000888, 0.000000000000000000, 0.000000000000000000 ) ) ;
#204 = EDGE_CURVE ( 'NONE', #27, #131, #21, .T. ) ;
#205 = DATE_AND_TIME ( #300, #213 ) ;
#206 = APPROVAL ( #325, 'UNSPECIFIED' ) ;
#207 = EDGE_CURVE ( 'NONE', #169, #293, #19, .T. ) ;
#208 = AXIS2_PLACEMENT_3D ( 'NONE', #123, #229, #179 ) ;
#209 = EDGE_LOOP ( 'NONE', ( #212, #58, #33, #190 ) ) ;
#210 = VERTEX_POINT ( 'NONE', #118 ) ;
#211 = ORIENTED_EDGE ( 'NONE', *, *, #79, .F. ) ;
#212 = ORIENTED_EDGE ( 'NONE', *, *, #18, .T. ) ;
#213 = LOCAL_TIME ( 9, 36, 7.000000000000000000, #200 ) ;
#214 = CARTESIAN_POINT ( 'NONE',  ( -1.614212418857619014, 0.000000000000000000, 12.69999999999999929 ) ) ;
#215 = VERTEX_POINT ( 'NONE', #222 ) ;
#216 =( NAMED_UNIT ( * ) PLANE_ANGLE_UNIT ( ) SI_UNIT ( $, .RADIAN. ) );
#217 = CIRCLE ( 'NONE', #310, 10.00000000000000000 ) ;
#218 = ORIENTED_EDGE ( 'NONE', *, *, #175, .T. ) ;
#219 = DIRECTION ( 'NONE',  ( 0.000000000000000000, 0.000000000000000000, -1.000000000000000000 ) ) ;
#220 = DIRECTION ( 'NONE',  ( 0.000000000000000000, 0.000000000000000000, 1.000000000000000000 ) ) ;
#221 = ADVANCED_FACE ( 'NONE', ( #165 ), #32, .T. ) ;
#222 = CARTESIAN_POINT ( 'NONE',  ( -3.000000000000000000, 1.555301434917138433E-15, -12.69999999999999929 ) ) ;
#223 = FACE_OUTER_BOUND ( 'NONE', #241, .T. ) ;
#224 = COORDINATED_UNIVERSAL_TIME_OFFSET ( 8, 0, .AHEAD. ) ;
#225 = DIRECTION ( 'NONE',  ( 0.000000000000000000, 0.000000000000000000, 1.000000000000000000 ) ) ;
#226 = PERSON_AND_ORGANIZATION ( #100, #260 ) ;
#227 = DIRECTION ( 'NONE',  ( -1.000000000000000000, -0.000000000000000000, -0.000000000000000000 ) ) ;
#228 = DIRECTION ( 'NONE',  ( 1.000000000000000000, 0.000000000000000000, 0.000000000000000000 ) ) ;
#229 = DIRECTION ( 'NONE',  ( -1.000000000000000000, -0.000000000000000000, -0.000000000000000000 ) ) ;
#230 =( GEOMETRIC_REPRESENTATION_CONTEXT ( 3 ) GLOBAL_UNCERTAINTY_ASSIGNED_CONTEXT ( ( #163 ) ) GLOBAL_UNIT_ASSIGNED_CONTEXT ( ( #245, #216, #167 ) ) REPRESENTATION_CONTEXT ( 'NONE', 'WORKASPACE' ) );
#231 = PERSON_AND_ORGANIZATION ( #100, #260 ) ;
#232 = APPROVAL_PERSON_ORGANIZATION ( #36, #263, #128 ) ;
#233 = CC_DESIGN_PERSON_AND_ORGANIZATION_ASSIGNMENT ( #43, #150, ( #183 ) ) ;
#234 = LOCAL_TIME ( 9, 36, 7.000000000000000000, #45 ) ;
#235 = ORIENTED_EDGE ( 'NONE', *, *, #186, .F. ) ;
#236 = EDGE_CURVE ( 'NONE', #289, #169, #306, .T. ) ;
#237 = EDGE_LOOP ( 'NONE', ( #292, #59 ) ) ;
#238 = CARTESIAN_POINT ( 'NONE',  ( -1.614212418857619014, 0.000000000000000000, 0.000000000000000000 ) ) ;
#239 = CARTESIAN_POINT ( 'NONE',  ( -2.500000000000000444, 1.224646799147353256E-15, -10.00000000000000000 ) ) ;
#240 = FACE_OUTER_BOUND ( 'NONE', #164, .T. ) ;
#241 = EDGE_LOOP ( 'NONE', ( #133, #8, #218, #139 ) ) ;
#242 = AXIS2_PLACEMENT_3D ( 'NONE', #154, #52, #156 ) ;
#243 = DIRECTION ( 'NONE',  ( -1.000000000000000000, -0.000000000000000000, -0.000000000000000000 ) ) ;
#244 = EDGE_LOOP ( 'NONE', ( #192, #83, #313, #61 ) ) ;
#245 =( LENGTH_UNIT ( ) NAMED_UNIT ( * ) SI_UNIT ( .MILLI., .METRE. ) );
#246 = ORIENTED_EDGE ( 'NONE', *, *, #201, .F. ) ;
#247 = LINE ( 'NONE', #115, #31 ) ;
#248 = FACE_OUTER_BOUND ( 'NONE', #189, .T. ) ;
#249 = PERSON_AND_ORGANIZATION ( #100, #260 ) ;
#250 = CC_DESIGN_APPROVAL ( #315, ( #308 ) ) ;
#251 = DIRECTION ( 'NONE',  ( -1.000000000000000000, -0.000000000000000000, -0.000000000000000000 ) ) ;
#252 = CALENDAR_DATE ( 2020, 24, 12 ) ;
#253 = DIRECTION ( 'NONE',  ( 0.000000000000000000, 0.000000000000000000, 1.000000000000000000 ) ) ;
#254 = COORDINATED_UNIVERSAL_TIME_OFFSET ( 8, 0, .AHEAD. ) ;
#255 = DIRECTION ( 'NONE',  ( -1.000000000000000000, -0.000000000000000000, -0.000000000000000000 ) ) ;
#256 = VECTOR ( 'NONE', #195, 1000.000000000000000 ) ;
#257 = CARTESIAN_POINT ( 'NONE',  ( -1.614212418857619014, 1.224646799147353256E-15, -10.00000000000000000 ) ) ;
#258 = CIRCLE ( 'NONE', #278, 12.69999999999999929 ) ;
#259 = CC_DESIGN_PERSON_AND_ORGANIZATION_ASSIGNMENT ( #231, #202, ( #26 ) ) ;
#260 = ORGANIZATION ( 'UNSPECIFIED', 'UNSPECIFIED', '' ) ;
#261 = ORIENTED_EDGE ( 'NONE', *, *, #204, .F. ) ;
#262 = DIRECTION ( 'NONE',  ( -1.000000000000000000, -0.000000000000000000, -0.000000000000000000 ) ) ;
#263 = APPROVAL ( #152, 'UNSPECIFIED' ) ;
#264 = VERTEX_POINT ( 'NONE', #3 ) ;
#265 = ADVANCED_FACE ( 'NONE', ( #7 ), #34, .F. ) ;
#266 = DIRECTION ( 'NONE',  ( 0.000000000000000000, 0.000000000000000000, 1.000000000000000000 ) ) ;
#267 = APPLICATION_PROTOCOL_DEFINITION ( 'international standard', 'config_control_design', 1994, #53 ) ;
#268 = CIRCLE ( 'NONE', #127, 10.00000000000000000 ) ;
#269 = ORIENTED_EDGE ( 'NONE', *, *, #106, .F. ) ;
#270 = PLANE ( 'NONE',  #24 ) ;
#271 = CALENDAR_DATE ( 2020, 24, 12 ) ;
#272 = CARTESIAN_POINT ( 'NONE',  ( 2.500000000000000888, 1.224646799147353256E-15, -10.00000000000000000 ) ) ;
#273 = CARTESIAN_POINT ( 'NONE',  ( -3.000000000000000444, 0.000000000000000000, 0.000000000000000000 ) ) ;
#274 = MECHANICAL_CONTEXT ( 'NONE', #53, 'mechanical' ) ;
#275 = CARTESIAN_POINT ( 'NONE',  ( 3.000000000000000000, 0.000000000000000000, 0.000000000000000000 ) ) ;
#276 = PERSON_AND_ORGANIZATION_ROLE ( 'creator' ) ;
#277 = CYLINDRICAL_SURFACE ( 'NONE', #208, 10.00000000000000000 ) ;
#278 = AXIS2_PLACEMENT_3D ( 'NONE', #153, #255, #117 ) ;
#279 = ADVANCED_FACE ( 'NONE', ( #170 ), #134, .T. ) ;
#280 = APPROVAL_DATE_TIME ( #205, #206 ) ;
#281 = EDGE_CURVE ( 'NONE', #210, #264, #107, .T. ) ;
#282 = AXIS2_PLACEMENT_3D ( 'NONE', #141, #243, #5 ) ;
#283 = AXIS2_PLACEMENT_3D ( 'NONE', #185, #286, #161 ) ;
#284 = ORIENTED_EDGE ( 'NONE', *, *, #186, .T. ) ;
#285 = ADVANCED_FACE ( 'NONE', ( #312, #240 ), #270, .F. ) ;
#286 = DIRECTION ( 'NONE',  ( 1.000000000000000000, 0.000000000000000000, 0.000000000000000000 ) ) ;
#287 = LOCAL_TIME ( 9, 36, 7.000000000000000000, #174 ) ;
#288 = DIRECTION ( 'NONE',  ( -1.000000000000000000, 0.000000000000000000, -0.000000000000000000 ) ) ;
#289 = VERTEX_POINT ( 'NONE', #80 ) ;
#290 = AXIS2_PLACEMENT_3D ( 'NONE', #144, #197, #225 ) ;
#291 = EDGE_CURVE ( 'NONE', #334, #6, #247, .T. ) ;
#292 = ORIENTED_EDGE ( 'NONE', *, *, #96, .F. ) ;
#293 = VERTEX_POINT ( 'NONE', #85 ) ;
#294 = AXIS2_PLACEMENT_3D ( 'NONE', #321, #288, #132 ) ;
#295 = DIRECTION ( 'NONE',  ( -1.000000000000000000, -0.000000000000000000, -0.000000000000000000 ) ) ;
#296 = DATE_TIME_ROLE ( 'creation_date' ) ;
#297 = CYLINDRICAL_SURFACE ( 'NONE', #332, 10.00000000000000000 ) ;
#298 = PERSON_AND_ORGANIZATION_ROLE ( 'design_supplier' ) ;
#299 = LINE ( 'NONE', #37, #256 ) ;
#300 = CALENDAR_DATE ( 2020, 24, 12 ) ;
#301 = EDGE_CURVE ( 'NONE', #215, #264, #101, .T. ) ;
#302 = ADVANCED_BREP_SHAPE_REPRESENTATION ( 'QB-CTZHWP-20-852-M', ( #42, #168 ), #230 ) ;
#303 = CARTESIAN_POINT ( 'NONE',  ( 2.999999999999999112, 0.000000000000000000, 10.00000000000000000 ) ) ;
#304 = DIRECTION ( 'NONE',  ( 0.000000000000000000, 0.000000000000000000, 1.000000000000000000 ) ) ;
#305 = CC_DESIGN_DATE_AND_TIME_ASSIGNMENT ( #72, #296, ( #26 ) ) ;
#306 = CIRCLE ( 'NONE', #330, 10.00000000000000000 ) ;
#307 = DIRECTION ( 'NONE',  ( -1.000000000000000000, -0.000000000000000000, -0.000000000000000000 ) ) ;
#308 = PRODUCT_DEFINITION_FORMATION_WITH_SPECIFIED_SOURCE ( 'ANY', '', #183, .NOT_KNOWN. ) ;
#309 = ORIENTED_EDGE ( 'NONE', *, *, #51, .F. ) ;
#310 = AXIS2_PLACEMENT_3D ( 'NONE', #203, #73, #71 ) ;
#311 = EDGE_LOOP ( 'NONE', ( #211, #309, #184, #333 ) ) ;
#312 = FACE_BOUND ( 'NONE', #166, .T. ) ;
#313 = ORIENTED_EDGE ( 'NONE', *, *, #109, .F. ) ;
#314 = ORIENTED_EDGE ( 'NONE', *, *, #116, .F. ) ;
#315 = APPROVAL ( #40, 'UNSPECIFIED' ) ;
#316 = PLANE ( 'NONE',  #294 ) ;
#317 = ORIENTED_EDGE ( 'NONE', *, *, #18, .F. ) ;
#318 = CARTESIAN_POINT ( 'NONE',  ( -3.000000000000000000, 10.00000000000000000, 0.000000000000000000 ) ) ;
#319 = CARTESIAN_POINT ( 'NONE',  ( -1.614212418857619014, 0.000000000000000000, 0.000000000000000000 ) ) ;
#320 = CIRCLE ( 'NONE', #242, 10.00000000000000000 ) ;
#321 = CARTESIAN_POINT ( 'NONE',  ( 2.999999999999999112, 12.69999999999999929, 0.000000000000000000 ) ) ;
#322 = ADVANCED_FACE ( 'NONE', ( #110, #65 ), #316, .F. ) ;
#323 = APPROVAL_DATE_TIME ( #145, #315 ) ;
#324 = APPLICATION_CONTEXT ( 'configuration controlled 3d designs of mechanical parts and assemblies' ) ;
#325 = APPROVAL_STATUS ( 'not_yet_approved' ) ;
#326 = DATE_AND_TIME ( #94, #87 ) ;
#327 = CC_DESIGN_PERSON_AND_ORGANIZATION_ASSIGNMENT ( #198, #276, ( #308 ) ) ;
#328 = DIRECTION ( 'NONE',  ( -1.000000000000000000, -0.000000000000000000, -0.000000000000000000 ) ) ;
#329 = SHAPE_DEFINITION_REPRESENTATION ( #124, #302 ) ;
#330 = AXIS2_PLACEMENT_3D ( 'NONE', #162, #191, #29 ) ;
#331 = VECTOR ( 'NONE', #227, 1000.000000000000000 ) ;
#332 = AXIS2_PLACEMENT_3D ( 'NONE', #95, #251, #121 ) ;
#333 = ORIENTED_EDGE ( 'NONE', *, *, #96, .T. ) ;
#334 = VERTEX_POINT ( 'NONE', #56 ) ;
#335 = ORIENTED_EDGE ( 'NONE', *, *, #51, .T. ) ;
ENDSEC;
END-ISO-10303-21;
